Βαθμολογήθηκε 5.0 από 1 χρήστη


Ξεκλείδωμα ταστιέρας
Τραγούδι:Τράβα ρε μάγκα και αλάνι
Ερμηνευτής:
Δημιουργός:Σκαρβέλης
Χρήστης:spyros55
Άλλες εκδόσεις:
Ταμπλατούρα:
 τραβα ρε μαγκα και αλανι                             



Όργανο 1
S S E E E E Q. S S E E E E Q.
D||---4-7-5--4--2--|--4g5--5------|--4-7-5--4--2--|--8g9--9------|
A||*---------------|--------------|---------------|--------------|
F||*---------------|--------------|---------------|--------------|
C||----------------|--------------|---------------|--------------|


S S E E E E E S S E S S S S S S S S S S Q.
--11-14-12--11--9--|--14--9--8-9-5--|--7-8-7-8-7-5-4-2-|--4-5-2------|
-------------------|----------------|------------------|-------------|
-------------------|----------------|------------------|-------------|
-------------------|----------------|------------------|-------------|


μη περασεις απ`τη γειτονια μου
E E E E E E E E E Q E
--0------------------------------2--2--9--|--9--7--7--5--|--10--9----9--|
------------------------------------------|--------------|--------------|
------------------------------------------|--------------|--------------|
------------------------------------------|--------------|--------------|


S S E S S E E E E E E E E E E E E E E E S S E
--8-9-5--4-5-2--|--0--2--2--9--|--9--7--7--5--|--10--9--------|--2-----5-4-2--|
----------------|--------------|--------------|---------2--2--|-----2---------|
----------------|--------------|--------------|---------------|---------------|
----------------|--------------|--------------|---------------|---------------|


E E E E E E E E S S E E E Q S S S S
--11--12--12--10--|--10--9--9--7--|--7-8-5--0--0--|--5----0-2-4-5-|
------------------|---------------|---------------|---------------|
------------------|---------------|---------------|---------------|
------------------|---------------|---------------|---------------|


E E E E E E E E S S E E E H E E E E
--7--8--8--7--|--7--5--4--2--|--4-5-2--------|--2--------|--11--12--12--10--|
--------------|--------------|---------2--2--|-----------|------------------|
--------------|--------------|---------------|-----------|------------------|
--------------|--------------|---------------|-----------|------------------|


E E E E S S E E E Q S S S S E E E E E E E E
--10--9--9--7--|--7-8-5--0--0--|--5----0-2-4-5-|--7--8--8--7--|--7--5--4--2--|
---------------|---------------|---------------|--------------|--------------|
---------------|---------------|---------------|--------------|--------------|
---------------|---------------|---------------|--------------|--------------|


τραβα ρε ...
S S E E E S S S S S S S S E Q E E E E E
--4-5-2--------|--2-2-4-5-7-9-10-12-|--14-----------9----5--|--7--7--5--7--|
---------2--2--|--------------------|-----------------------|--------------|
---------------|--------------------|-----------------------|--------------|
---------------|--------------------|-----------------------|--------------|


E Q. S S S S S S S S E Q E E E E E E Q.
--10--9------|----2-4-5-7-9-10-12-|--14--9----5--|--7--7--5--4--|--4--2------|
-------------|--------------------|--------------|--------------|------------|
-------------|--------------------|--------------|--------------|------------|
-------------|--------------------|--------------|--------------|------------|


S S S S S S S S E Q E E E E E E Q.
----2-4-5-7-9-10-12-|--14--9----5--|--7--7--5--7--|--10--9------|
--------------------|--------------|--------------|-------------|
--------------------|--------------|--------------|-------------|
--------------------|--------------|--------------|-------------|


S S S S S S S S E Q E E E E E E E E E
----2-4-5-7-9-10-12-|--14--9----5--|--7--7--5--4--|--4--2--------|
--------------------|--------------|--------------|--------2--2--|
--------------------|--------------|--------------|--------------|
--------------------|--------------|--------------|--------------|


H S S E E E E Q. S S E E S. T E Q.
---9---------||--4-7-5--4--2--|--4g5--5------|--4-7-5--4--2--8-|--8g9--9------|
--10--------*||---------------|--------------|-----------------|--------------|
--11--------*||---------------|--------------|-----------------|--------------|
-------------||---------------|--------------|-----------------|--------------|


S S E E E E E S S E S S S S S S S S E E Q
--11-14-12--11--9--|--14--9--8-9-5--|--7-8-7-8-7-5-4-5-|--2--9--14----||
-------------------|----------------|------------------|--------14----||
-------------------|----------------|------------------|--------14----||
-------------------|----------------|------------------|--------------||




Duration Legend
---------------
W - whole
H - half
Q - quarter
E - 8th
S - 16th
T - 32nd
X - 64th
. - note dotted
|-n-| - n-tuplets


Tablature Legend
----------------
L - tied note
x - dead note
g - grace note
(n) - ghost note
> - accentuded note
NH - natural harmonic
AH - artificial harmonic
TH - tapped harmonic
SH - semi harmonic
PH - pitch harmonic
h - hammer on
p - pull off
b - bend
br - bendRelease
pb - preBend
pbr - preBendRelease
brb - bendReleaseBend
\n/ - tremolo bar dip
\n - tremolo bar dive
-/n - tremolo bar Release up
/n\ - tremolo bar inverted dip
/n - tremolo bar return
-\n - tremolo bar Release down
S - shift slide
s - legato slide
/ - slide into from below or out of upwards
\ - slide into from above or out of downwards
~ - vibrato
W - wide vibrato
tr - trill
TP - tremolo picking
T - tapping
S - slap
P - pop
< - fade in
^ - brush up
v - brush down
εδω θα βρειτε την παρτιτουρα ...http://mpouzoukizo.blogspot.gr/


Πρόσθεσε σχόλιο:
2018-09-18 18:32:03
stamosman: Πολυ καλο. Μπραβο