Ξεκλείδωμα ταστιέρας
Τραγούδι:Συ μου χάραξες πορεία
Ερμηνευτής:Αλεξίου Χάρις
Δημιουργός:Καλδάρας Απόστολος
Youtube:https://www.youtube.com/watch?v=OD_6Mkhw-uM

Χρήστης:

spyros55(3 φορές προστέθηκε στα αγαπημένα)
Άλλες εκδόσεις:salokin(32)
Ταμπλατούρα:
εσυ μου χαραξες πορεια             



Όργανο 1
Q. E E E
D||---------10--12--10--|
A||---------------------|
F||---------------------|
C||---------------------|


Fm
E E E E E E
|---13--12--10--------------|
|*--------------11------11--|
|*------------------12------|
|---------------------------|


Cm
Q. E E E E E E E E E
--10----------------|--6--5--3--1-----1--|
----------8--10--8--|--------------3-----|
--------------------|--------------------|
--------------------|--------------------|


Q. E E E
--5------5--9--12--|
-------------------|
-------------------|
-------------------|


G7
E E E E E E
--17--15--13--15--13--12--|
--------------------------|
--------------------------|
--------------------------|


E E E E E E
--13--12--10--12--10--9--|
-------------------------|
-------------------------|
-------------------------|


Cm
E E E E E E
--13--12--11--10--9--8--|
------------------------|
------------------------|
------------------------|


E E E E E E
--7--6--5--10--12--10---||
-----------------------*||
-----------------------*||
------------------------||


Cm
Q S T T T T T T T T T T T T T
--10----L-12-10-9-10-12-13-12-10-9-----------
-----------------------------------11-10-8---
-------------------------------------------10
---------------------------------------------


δυο φι
H E E
---------------------|
-----------6------5--|
--7------------------|
---------------------|


λια σου κι`ενα
E Q E E E
----------------------------1--|
--3--------------3----L--3-----|
-------------------------------|
-------------------------------|


χαδι ενα
E Q E E E
--5--------5----L-----1--|
-------------------3-----|
-------------------------|
-------------------------|


ενα πιλκραμενο
C7
Q E E E E
--5--------------5--L--5--6--|
-----------------------------|
-----------------------------|
-----------------------------|


βραδι μου τα
Fm
E Q E E E
--5------------3----L--3--5--|
-----------------------------|
-----------------------------|
-----------------------------|


ραξαν της ψυ
E Q E E E
--6------------6----L--6--8--|
-----------------------------|
-----------------------------|
-----------------------------|


χης μου τη γα
Q E E E E
--10------------10--L--8--6--|
-----------------------------|
-----------------------------|
-----------------------------|


ληνη παρα
Cm
E Q E E E
--6---------5----L--5--5--|
--------------------------|
--------------------------|
--------------------------|


δοθηκα σε
E Q E E E
--10---------10----L--10------|
--------------------------10--|
------------------------------|
------------------------------|


σενα δε λο
Fm
E Q E E E
------------------------------|
--11---------11----L----------|
----------------------12--12--|
------------------------------|


γαριασα κα
Q E Q E
---------------------------|
--11---------13--11--------|
-----------------------12--|
---------------------------|


νενα κι`ειπα
Cm
E Q E E E
---------------------------------|
--10-------------10----L---------|
--------------------------9--10--|
---------------------------------|


τωρα οτι
G7
E Q E E E
-------------------------|
--8----------------------|
-----------9----L--6--6--|
-------------------------|


θελει ας γινει
Cm
E Q Q E E Q Q.
--0----------------0--|--0-----------------|
-----6--------L-------|--------3----L------|
----------------------|--------------------|
----------------------|--------------------|


συ μου
Q E E E E
-------------3------5--|
-----------------------|
-----------------------|
-----------------------|


χα α α
Fm
Q. E. S S S
|---6------L---8-6-5-|
|*-------------------|
|*-------------------|
|--------------------|


α ραξες πο
Q E Q E
--6----------9--10----12--|
--------------------------|
--------------------------|
--------------------------|


ρεια α εσυ γλυ
Cm
Q. Q. Q. E E E
--10--------------|----------------9--10--|
----------10------|--L---------10---------|
------------------|-----------------------|
------------------|-----------------------|


κια εσυ γλυ
G
Q. E E E
--12----------9----------|
-----------------11--10--|
-------------------------|
-------------------------|


κια μου αμα
F#dim G7
E Q E E E
-------------------------------|
--9-----------10----L----------|
-------------------------------|
-----------------------11--11--|


ρτι α α
Cm
E Q Q. Q. E E E
--0-----------------|---------------5---||
--------3----3------|--L---------8-----*||
--------------------|------------------*||
--------------------|-------------------||


Q H
----------------||
--L-------------||
----------------||
----------------||




Duration Legend
---------------
W - whole
H - half
Q - quarter
E - 8th
S - 16th
T - 32nd
X - 64th
. - note dotted
|-n-| - n-tuplets


Tablature Legend
----------------
L - tied note
x - dead note
g - grace note
(n) - ghost note
> - accentuded note
NH - natural harmonic
AH - artificial harmonic
TH - tapped harmonic
SH - semi harmonic
PH - pitch harmonic
h - hammer on
p - pull off
b - bend
br - bendRelease
pb - preBend
pbr - preBendRelease
brb - bendReleaseBend
\n/ - tremolo bar dip
\n - tremolo bar dive
-/n - tremolo bar Release up
/n\ - tremolo bar inverted dip
/n - tremolo bar return
-\n - tremolo bar Release down
S - shift slide
s - legato slide
/ - slide into from below or out of upwards
\ - slide into from above or out of downwards
~ - vibrato
W - wide vibrato
tr - trill
TP - tremolo picking
T - tapping
S - slap
P - pop
< - fade in
^ - brush up
v - brush down



Add comment:
2017-05-16 15:51:23
megalospaok: Όλα καλά φίλε μου, αλλά σε παρακαλώ εξήγησε μου τι είναι αυτό το L; Έχεις επεξήγηση των συμβόλων στο τέλος, αλλά δεν καταλαβαίνω. Που πατάμε στην ταστιέρα;