Unlock Fretboard position
Song:Αργιλέ μου γιατι σβήνεις
Singer:
Composer:Χρυσίνης Στέλιος

User:

spyros55(2 φορές προστέθηκε στα αγαπημένα)
Άλλες εκδόσεις:PAPADERO (32), jdaoutid(4)
tab:
 αργιλε μου γιατι σβηνεις                             



μπουζουκι 4
Dm
S S S S S S S S S S S S S T T S S S S
D||---12-13-10-13-12-7-12-7-12-13-10-13-12-12-7-12-7-12-7-|
A||*------------------------------------------------------|
F||*------------------------------------------------------|
C||-------------------------------------------------------|


S S S S S S S S S S T T S S. T S S S. T
--12-13-10-13-12-3-5-7-3-1-1-0---0----0---0--12-|
-------------------------------3----0---0-------|
------------------------------------------------|
------------------------------------------------|


S S S S S S S S S S S S S T T S S S S
--12-13-10-13-12-7-12-7-12-13-10-13-12-12-7-12-7-12-7-|
------------------------------------------------------|
------------------------------------------------------|
------------------------------------------------------|


S S S S S S S S S S T T S S. T S S E
--12-13-10-13-12-3-5-7-3-1-1-0---0----0---0--|
-------------------------------3----0---0----|
---------------------------------------------|
---------------------------------------------|


αρ γι λε μου για τι σβη νεις
E S S S S E S. T S S S T T S S E
--L--7----------------------------8-7-8-5--5--3-5-7-3-3-5-1-0-0--|
-----------------------------------------------------------------|
-----------------------------------------------------------------|
-----------------------------------------------------------------|


κι`ολο τις φω τιες μου ρι χνεις
E S S S S E S. T S S S T T S S E
--L--7-------------------------------8-7-8-5--5--3-5-7-3-3-5-1-0-0--|
--------------------------------------------------------------------|
--------------------------------------------------------------------|
--------------------------------------------------------------------|


E T T T T E E S S S S S T T S S S S
--L--7-10-8-10-7--5--5-3-5-7-3-3-5-1-0-0---|
-----------------------------------------0-|
-------------------------------------------|
-------------------------------------------|


E T T T T E E S S S S S T T S S S S
--0--7-10-8-10-7--5--5-3-5-7-3-3-5-1-0-0---|
-----------------------------------------0-|
-------------------------------------------|
-------------------------------------------|


μη πως δεν τον φχα ρι στου σα
E S S E E S S S S E Q
--0--7-----------------------------8-10--7--8-7-5-7-5--3----|
------------------------------------------------------------|
------------------------------------------------------------|
------------------------------------------------------------|


κει νο νε που α γα που σα
E S S E E S S S S E E E
--L--3-------------------------5-7--3--5-3-1-3-1--0--0--|
--------------------------------------------------------|
--------------------------------------------------------|
--------------------------------------------------------|


μη πως δεν τον φχα ρι στου σα
E S S E E S S S S E Q
--0--7-----------------------------8-10--7--8-7-5-7-5--3----|
------------------------------------------------------------|
------------------------------------------------------------|
------------------------------------------------------------|


κει νο νε που α γα που σα
E S S E E S S S S E E. T T
--L--3-------------------------5-7--3--5-3-1-3-1--0---L-12--||
-----------------------------------------------------------*||
-----------------------------------------------------------*||
------------------------------------------------------------||


Dm
S S S S S S S S S S S S S T T S S S S
--12-13-10-13-12-7-12-7-12-13-10-13-12-12-7-12-7-12-7-|
------------------------------------------------------|
------------------------------------------------------|
------------------------------------------------------|


S S S S S S S S S S T T S S. T S S E
--12-13-10-13-12-3-5-7-3-1-1-0---0----0---0--||
-------------------------------3----0---0----||
---------------------------------------------||
---------------------------------------------||





Add comment: