Unlock Fretboard position
Song:Η νοσταλγία
Singer:
Composer:Πέτσας

User:

spyros55(0 φορές προστέθηκε στα αγαπημένα)
tab:
Όργανο 1

W S. T
D||----------------------11-|
A||-------------------------|
F||-------------------------|
C||-------------------------|


D Gm C7 F
S T T T T T T T X X X X T T X X X X T S T T T T T T T T T T T T T T T
|---12-7-10-8-7-5--4-5-7-5-4-5-7-8-10-8-7-8-10-10-5-8-7-5-3-2-3-3-3-5-7-8-5-7-3-
|*------------------------------------------------------------------------------
|*------------------------------------------------------------------------------
|-------------------------------------------------------------------------------


Dm Gm Dm A Dm
T T T T T T T T T T T T S T T S T T T T T T S T T T T T T S S
--0-0-0--2-3-3-3-4-5--5-5-7-12-10-8-7-5-3-2-5-3-2-0--7-8-7-5-3-2-0---|
-------------------------------------------------------------------0-|
---------------------------------------------------------------------|
---------------------------------------------------------------------|


ο ταν πεφ τει το σκο τα δι
Dm
S S S S E T T E S S S T T T T T T T T T T T T
--3-0--------------------------0-3-7--3-2-3--5-5-7-3-5-2-3-0---0-2-3-2-3-5-|
--5----------------------------------------------------------4-------------|
--4------------------------------------------------------------------------|
---------------------------------------------------------------------------|


κι`οταν ει ναι συν νε φια
D Gm C7 F
S S S S T T T T T T T T S T T S S S T T
--7-0-------------------------4-7-12-12-12-12-12-12-12-12-12-10-12-10-8-7-15-14-
----------------------------------13-13-13-13-13-13-13-13-13--------------------
--------------------------------------------------------------------------------
--------------------------------------------------------------------------------


ερ χε ται η νοσ ταλ για
Gm A
S S S S T T T T T T E S S S T T T T T T T T T
--12-----------------------12-12-10-8-10-8-7-5-4-5--5-8-12-11-12-11-8-7-8-7-5-3-
--------------------------------------------------------------------------------
--------------------------------------------------------------------------------
--------------------------------------------------------------------------------


να μου κα ψει την καρ δια
A Dm
S T T T T T T T T T T T T S S S S S T T T T T T T T T
----2-------------------------2-2-2-5-5-3-5-3-2-3-3-5-7--7-7-7-0---0-2-3-2-3-5-7
--0--------------------------------------------------------------4--------------
--------------------------------------------------------------------------------
--------------------------------------------------------------------------------


ερ χε ται η νοσ ταλ για
S S S S T T T T T T E S S S T T T T T T T T T T
--7-12-----------------------12-10-8-10-8-7-5-4-5--5-8-12-11-12-11-8-7-8-7-5-3-2
--------------------------------------------------------------------------------
--------------------------------------------------------------------------------
--------------------------------------------------------------------------------


να μου καψει την κα ρδια
S T T T T T T T T T T T T T T S S S T T T T T T T T T T
----2------------------------2-2-2-5-5-3-3-3-2-2-0-0---0-0-0-7-8-7-8-5-7-3-5-2-3
--0--------------------------------------------------4--------------------------
--------------------------------------------------------------------------------
--------------------------------------------------------------------------------


που δεν θα ξα να βρω πια
S T T T T T T T T T T T T T T S S S T T T T T T T T T T
----2-2------------------------2-2-5-5-3-3-3-2-2-0-0---0-0-0-7-8-7-8-5-7-3-5-2-3
--0--------------------------------------------------4--------------------------
--------------------------------------------------------------------------------
--------------------------------------------------------------------------------


T T T T T T T T T T T T S T T S T T T T T T S T T T T T T S S
--0-0-0-2-3-3-3-4-5-5-5-7-12-10-8-7-5-3-2-5-3-2-0-7-8-7-5-3-2-0---|
----------------------------------------------------------------0-|
------------------------------------------------------------------|
------------------------------------------------------------------|


W E
--3-------------------||
--5-------------------||
--4-------------------||
----------------------||



Add comment: